What´s make you beautifull - One direction


What´s make you beautifull - One Direction - Tablatura

Imprimir PDF

Baixo

E E A A B B B B

]-----------------------------------------------------------------[

]-----------------------------------------------------------------[

]-----------------------------------------------------------------[

]-----------------------------------------------------------------[

]-----------------------0------0---2-----2-----2-----2----[

]-------0------0------------------------------------------------[

Acordes

E E A A B7 B7 B7 B7

]-------0------0------0------0---2-----2-----2-----2--------[

]-------0------0------2------2---0-----0-----0-----0--------[

]-------1------1------2------2---2-----2-----2-----2--------[

]-------2------2------2------2---1-----1-----1-----1--------[

]-------2------2------0------0---2-----2-----2-----2--------[

]-------0------0-----------------------------------------------------[

Batida

Verso 1:

E A

You're insecure

B7

Don't know what for

E A B7

You're turning heads when you walk through the door

E A B7

Don't need make-up

E A B7

Being the way that you are is enough

Pre-Refrão:

E A B7

Everyone else in the room can see it

E A B7

Everyone else but you

Refrão:

E A B7

Baby you light up my world like nobody else

E A B7

The way that you flip your hair gets me overwhelmed

E A B7

But you when smile at the ground it aint hard to tell

E A

You don't know oh oh

B7

You don't know you're beautiful

E A B7

If only you saw what I can see

E A B7

You'll understand why I want you so desperately

E A B7

Right now I'm looking at you and I can't believe

E A

You don't know oh oh

B7 E A

You don't know you're beautiful oh oh

B7

But that's what makes you beautiful

Verso 2:

E A

So c-come on

B7

You got it wrong

E A B7

to prove I'm right I put it in a song

E A

I don't why

B7

You're being shy

E A B7

and turn away when I look into your eyes

Ponte 2x:

E A B7 E A B7

Na na na na na na na na na,na na na na na na na na

Refrão:

E A B7

Baby you light up my world like nobody else

E A B7

The way that you flip your hair gets me overwhelmed

E A B7

But you when smile at the ground it aint hard to tell

E A

You don't know oh oh

B7

You don't know you're beautiful














Veja também:

Zen - Anitta

Equalize - Pitty

Redes Sociais

  • Wix Facebook page
  • YouTube Social  Icon