Hino do Palmeiras - Como tocar no Violão - Solo e base

Melodia (solo) do hino do Palmeiras no violão. Aprenda como tocar o hino do Palmeiras, o solo e a harmonia (acordes) do hino.

Bb C F

] ------------------------------------------------------------[

] ------------------------------------5---------5-------6---[

] ----5-------5---7---------7------------------------------[

] ------------------------------------------------------------[

] ------------------------------------------------------------[

] ------------------------------------------------------------[

F

] ---------------------------------------------------------------------5----5--[

] -----------------------------------5----6---------8-----6-------------------[

] -----------------5-----7-----------------------------------------------------[

] --7----8---------------------------------------------------------------------[

] ------------------------------------------------------------------------------[

] ------------------------------------------------------------------------------[

Dm D7 Gm

] -----------------------------------------------------------------------[

] ---8-----6----8----- 6-----5---------------------5------------[

] --------------------------------------7---------5-------7-----7---[

] ------------------------------------------------------------------------[

] ------------------------------------------------------------------------[

] ------------------------------------------------------------------------[

D7 Gm

] --------------------------------------------------------5-----8-------6--[

] -------------------------5-----7---7--------8---------------------------[

] --5------7----7----------------------------------------------------------[

] ---------------------------------------------------------------------------[

] ---------------------------------------------------------------------------[

] ---------------------------------------------------------------------------[

C7 F

] ---6-----5---8-------6-------------------------------------5-------5----[

] ------------------------------------8----5---------------------------------[

] --------------------------------------------------7-----5------------------[

] ----------------------------------------------------------------------------[

] ----------------------------------------------------------------------------[

] ----------------------------------------------------------------------------[

F

] --8-------8----8----------6------5-----------------------------5----------------[

] ------------------------------------------------8---------6--------------8-----8--[

] ----------------------------------------------------------------------------------------[

] ----------------------------------------------------------------------------------------[

] ----------------------------------------------------------------------------------------[

] ----------------------------------------------------------------------------------------[

Gm

] --8------8----8---------6-----5---------------------------5----------------------[

] ----------------------------------------------8-------6--------------8--------8---[

] -------------------------------------------------------------------------------------[

] -------------------------------------------------------------------------------------[

] -------------------------------------------------------------------------------------[

] -------------------------------------------------------------------------------------[

Bb Gm Dm

] -----------------------------------------------------------------5----------5---[

] -----------5---6---------5-------6--8-------6-----8------------8-------[

] ---7-----------------------------------------------------------------------------[

] ----------------------------------------------------------------------------------[

] ----------------------------------------------------------------------------------[

] ----------------------------------------------------------------------------------[

D7 Gm C7 F

] -----6-----------8-------9------10-----0-----5-------------------[

] -----------------------------------------------------------8-----6---[

] ----------------------------------------------------------------------[

] ----------------------------------------------------------------------[

] ----------------------------------------------------------------------[

] -----------------------------------------------------------------------[

Faz duas vezes o trecho abaixo

Bb F

] -------------6----------6------------------------------------------------[

] --6--------------------------------------6------------------6--------6--[

] -------------------------------------------------7------------------------[

] -------------------------------------------------------8------------------[

] ---------------------------------------------------------------------------[

] ---------------------------------------------------------------------------[

Bb F

] ---6--------6------6---6-------------------------------------------------[

] -----------------------------------------6------------------6--------6----[

] -----------------------------------------------7---------------------------[

] ------------------------------------------------------8--------------------[

] ----------------------------------------------------------------------------[

] ----------------------------------------------------------------------------[

Bb Eb F

] --------------10------8-----10--11------10------10------8-----[

] -----6---------------------------------------------------------------[

] ----------------------------------------------------------------------[

] ----------------------------------------------------------------------[

] ----------------------------------------------------------------------[

] ----------------------------------------------------------------------[

FIm do trecho - Repete

Seguindo...

Gm Bb

] ------------------------------5---6--------------------------------[

] ---6-----8-----8----------------------8------6-----------------[

] ----------------------------------------------------------------------[

] ----------------------------------------------------------------------[

] ----------------------------------------------------------------------[

] ----------------------------------------------------------------------[

C Bb

] -------------------8------8---------8---6----6----10----10--[

] --6-----6--------------------------------------------------------[

] ------------------------------------------------------------------[

] ------------------------------------------------------------------[

] ------------------------------------------------------------------[

] ------------------------------------------------------------------[

C F Bb

] -------------------------------------5------5--------6------6---[

] ---6-----6--8--------8------------------------------------------[

] -------------------------------------------------------------------[

] -------------------------------------------------------------------[

] -------------------------------------------------------------------[

] -------------------------------------------------------------------[

Veja agora a letra com cifra do Hino do Palmeiras no violão

F Quando surge o alviverde imponente Dm D7 Gm No gramado em que a luta o aguarda D7 Gm Sabe bem o que vem pela frente C7 F Que a dureza do prélio não tarda!

F E o Palmeiras no ardor da partida Gm Transformando a lealdade em padrão Bb Gm Dm Sabe sempre levar de vencida D7 Gm C7 F E mostrar que, de fato, é campeão!

Bb F Defesa que ninguém passa Bb F Linha atacante de raça Bb Eb F Torcida que canta e vibra

Gm Bb Por nosso alviverde inteiro C Bb Que sabe ser brasileiro C F Bb Ostentando a sua fibra!

Redes Sociais

  • Wix Facebook page
  • YouTube Social  Icon