Hino do São Paulo


Hino do São Paulo

Aprenda a tocar a melodia (solo) do hino do São Paulo Futebol Clube no violão. Veja o vídeo e acompanhe pela tablatura e pela cifra o solo e os acordes (harmonia) da música.

Tablatura em PDF

Cifra em PDF

C

]----------------0-------------------------------------------------|

]--1-----3-----------3-----1-----------------------------------|

]------------------------------------2-----0----------------0---|

]-------------------------------------------------------------------|

]-------------------------------------------------------------------|

]-------------------------------------------------------------------|

C G7

]-----------------------------------------------------------------[

]---------1---------1-----3-----3--------------1------0--[

]---0------------------------------------2---2---------------[

]-----------------------------------------------------------------[

]-----------------------------------------------------------------[

]-----------------------------------------------------------------[

G7

]--------------------------------------------------------[

]---0-------1----3----1------------1------0------[

]------------------------------2------------------------[

]--------------------------------------------------------[

]--------------------------------------------------------[

]--------------------------------------------------------[

Dm C

]-----------------------------------------------------------------------|

]-----------1----0---------------------0----3------0-----------------|

]--2-------------------2------2---------------------------2-----0----|

]-----------------------------------------------------------------------|

]-----------------------------------------------------------------------|

]-----------------------------------------------------------------------|

A7 Dm D7

]----------------------------------------------0--------------1-----0----------------[

]---------------------------------------3----------------3---------------3------3---[

]--2---------2------3----2-----2---------------------------------------------------[

]--------------------------------------------------------------------------------------[

]--------------------------------------------------------------------------------------[

]--------------------------------------------------------------------------------------[

D7 G

]-----------0-----2---------------3---------3-----------[

]---3---------------------3------------------------------[

]---------------------------------------------------------[

]---------------------------------------------------------[

]---------------------------------------------------------[

]---------------------------------------------------------[

Refrão

Dm C

]----3-----1------0-------------------------------------------------------------|

]---------------------------3------------------------0--------------------------|

]---------------------------------------2-----2-----------2------0--------0---|

]---------------------------------------------------------------------------------|

]---------------------------------------------------------------------------------|

]---------------------------------------------------------------------------------|

G7 C

]---0------1-------0---------------------3-------------[

]---------------------------3----------------------------[

]---------------------------------------------------------[

]---------------------------------------------------------[

]---------------------------------------------------------[

]---------------------------------------------------------[

G7 C

]--------------3------------------3------------3-------[

]----3----------------3---------------------------------[

]--------------------------------------------------------[

]--------------------------------------------------------[

]--------------------------------------------------------[

]--------------------------------------------------------[

Repete refrao trocando a última tab (acima) por esta abaixo

G7 C

]-----3------3-------3--------------------------------[

]----------------------------------1---------1---------[

]-------------------------------------------------------[

]-------------------------------------------------------[

]-------------------------------------------------------[

]-------------------------------------------------------[

Letra com a cifra do hino do São Paulo para Violão

Tom: C

C Salve o Tricolor Paulista G7 Amado clube brasileiro Dm Tu és forte, tu és grande C Dentre os grandes és o primeiro A7 Dm Tu és forte, tu és grande D7 G Dentre os grandes és o primeiro

C Dm Ó Tricolor G7 C Clube bem amado G7 As tuas glórias C Vêm do passado Dm Ó Tricolor G7 C Clube bem amado G7 As tuas glórias C Vêm do passado

C São teus guias brasileiros G7 Que te amam eternamente Dm De São Paulo tens o nome C Que ostentas dignamente A7 Dm De São Paulo tens o nome G7 C Que ostentas dignamente

C Dm Ó Tricolor G7 C Clube bem amado G7 As tuas glórias C Vêm do passado

Dm Ó Tricolor G7 C Clube bem amado G7 As tuas glórias C Vêm do passado

C São Paulo clube querido G7 Tu tens o nosso amor Dm Teu nome e as tuas glórias C Tem honra e resplendor A7 Dm Teu nome e as tuas glórias G7 C Tem honra e resplendor

C Dm Ó Tricolor G7 C Clube bem amado G7 As tuas glórias C Vêm do passado


Dm Ó Tricolor G7 C Clube bem amado G7 As tuas glórias C Vêm do passado

C Tuas cores gloriosas G7 Despertam um amor febril Dm Pela terra bandeirantes C Honra e glória do Brasil A7 Dm Pela terra bandeirante G7 C Honra e glória do Brasil

C Dm Ó Tricolor G7 C Clube bem amado G7 As tuas glórias C Vêm do passado

Dm Ó Tricolor G7 C Clube bem amado G7 As tuas glórias C Vêm do passado

Bom, este foi o hino do São Paulo no violão, um arranjo para dois violões fácil e simples, melodia e harmonia.


Redes Sociais

  • Wix Facebook page
  • YouTube Social  Icon