Lago dos Cisnes - Solo e acordes

 

 

 

 

Veja nesse vídeo um grande clássico de Tchakovisky, O lago dos cisnes, que também fez sucesso no filme Cisne Negro. Essa melodia segue a escala de Lá menor natural, passando pela menor harmônica em um instante. Esta música faz parte do repertório do Novo Curso que será lançado pelo Violão De Boa, onde você aprenderá a solar, tirar música de ouvido, improvisar e entender de música! 

 

Veja a Tab abaixo:                                                                                                 Tablatura em PDF


 

       Am        Dm               Am                                                     Dm                    Am             E

            

1E]---0---------------------0----------0-------------0-----------------------------------------------------[

2B]---------------0--1--3----------1------------1-----------------1----------1---------------3--1---0---[

3G]-----------2------------------------------------------------2-------2-----------2-----------------------[

4D]-------------------------------------------------------------------------3-------------------------------[

5A]----------------------------------------------------------------------------------------------------------[

6E]----------------------------------------------------------------------------------------------------------[

 

        Am       Dm                 Am                                                     Dm                      Am

 

1E]---0----------------------0----------0-------------0-----------------------------------------------------[

2B]---------------0--1--3----------1------------1-----------------1----------1-----------------------------[

3G]-----------2------------------------------------------------2-------2-----------2------------------------[

4D]-------------------------------------------------------------------------3--------------------------------[

5A]-----------------------------------------------------------------------------------------------------------[

6E]-----------------------------------------------------------------------------------------------------------[

                                                          

                  G7                             C                                Dm                               E

 

1E]------------------------0--1--3----1----0----1--3--5----3----1----3--5--7----------------------[

2B]--------0----1----3--------------------------------------------------------------------------------[

3G]---2------------------------------------------------------------------------------------------------[

4D]----------------------------------------------------------------------------------------------------[

5A]----------------------------------------------------------------------------------------------------[

6E]----------------------------------------------------------------------------------------------------[

 

         Am       Dm               Am                                                       E                     Am

 

1E]---0---------------------0----------0-------------0-----------------------------------------------------[

2B]---------------0--1--3----------1------------1-----------------1----------1----------------------------[

3G]-----------2------------------------------------------------2-------1-----------2-----------------------[

4D]-------------------------------------------------------------------------3-------------------------------[

5A]----------------------------------------------------------------------------------------------------------[

6E]----------------------------------------------------------------------------------------------------------[

 

 

 

Para você que está aprendendo a solar, esta melodia é tocada , na maioria das notas, na primeira região do braço do violão (até a casa 3). A escala de Lá menor natural possui todas as notas naturais. 

 

A escala de Lá menor possui todas as notas naturais, ela é igual a escala de Dó Maior, porém a tônica (nota principal de "repouso") é o Lá. Veja a disposição da distancia entre tons.

 

As distancias entre as demais notas é de 1 tom.

 

Veja como fica a escala de Lá menor natural na 1ª região do braço do Violão:

 

 

1E]---------------------------------------------0--1--3--5----[

2B]----------------------------------0--1--3------------------[

3G]--------------------------0--2------------------------------[

4D]---------------0--2--3-------------------------------------[

5A]----0--2--3------------------------------------------------[

6E]------------------------------------------------------------[

 

 

Agora veja abaixo o desenho da escala de Lá menor visualizando o braço do instrumento:

 

 

A escala menor harmônica é formada quando você pega o sétimo grau e acrescenta meio tom, ficando com meio de distância entre o sétimo e o oitavo (primeiro) graus.

 

 

A escala menor harmônica será usada quando o acorde da harmonia vai para E (Mi Maior), na verdade a nota sol# na melodia só é utilizada em um momento rápido, no fim do trecho. Veja o sol# entre parênteses vermelhos:

 

 

         Am       Dm               Am                                                       E                     Am

 

1E]---0---------------------0----------0-------------0-----------------------------------------------------[

2B]---------------0--1--3----------1------------1-----------------1------------------1-------------------[

3G]-----------2------------------------------------------------2-------(1)Sol#---------------2------------[

4D]--------------------------------------------------------------------------------3------------------------[

5A]----------------------------------------------------------------------------------------------------------[

6E]----------------------------------------------------------------------------------------------------------[

 

 

Veja como fica a escala de Lá menor harmônica na 1ª região do braço do Violão:

 

 

1E]---------------------------------------------0--1--4*--5----[

2B]----------------------------------0--1--3-------------------[

3G]--------------------------0--2-------------------------------[

4D]---------------0--2--4*-------------------------------------[

5A]----0--2--3-------------------------------------------------[

6E]-------------------------------------------------------------[

 

* Nota alterada da escala, a sétima (sol#) que configura a escala de Lá menor harmônica

 

 

 

 

APRENDA A SOLAR

 

 

 

 

 

 

Alexandre Bloisi

Músico, professor de violão, criador do Violão De Boa.

 

 

 

 

 

 

 

 

.

Please reload

Please reload

Redes Sociais

  • Wix Facebook page
  • YouTube Social  Icon