top of page
Buscar

Yesterday


Vídeo do solo e harmonia (acordes) da música Yesterday, dos Beatles. Solo fácil para iniciante no violão

Tablatura em PDF

Depois de treinar, é hora de tocar o solo no seu instrumento junto com a base de violão e acompanhando a partitura e tablatura no vídeo. Veja Abaixo:

APRENDA A SOLAR

Yesterday

C Bm E Am F G C Am D F C

[-------------0-2-4-5-7-8-7-5-5-5-5-3-1-0-----1-0-0-----0----------0-0---------]

[---3-1-1------------------------------------------------3-----------3-1---3----1---------------]

[-------------------------------------------------------------------------------------2-------------------]

[-----------------------------------------------------------------------------------------------------------]

[-----------------------------------------------------------------------------------------------------------]

[-----------------------------------------------------------------------------------------------------------]

Bm E Am Am7 F G C Bm E Am Am7 F G C

[----0-0-5-7-8-7-5-7-5---5--0-0-0-5-7-8-7-5-7-5---7-8-3-1-0---------------]

[---------------------------------8--------------------------------------8--------------------------------]

[------------------------------------------------------------------------------------------------------------]

[------------------------------------------------------------------------------------------------------------]

[------------------------------------------------------------------------------------------------------------]

[------------------------------------------------------------------------------------------------------------]

Bm E Am F G C Am D F C

[-------------0-2-4-5-7-8-7-5-5-5-5-3-1-0----1-0-0-----------0---------0-0------]

[---3-1-1-------------------------------------------------3-----------3----1----3---1------------]

[-------------------------------------------------------------------------------------------2--------------]

[-----------------------------------------------------------------------------------------------------------]

[-----------------------------------------------------------------------------------------------------------]

[-----------------------------------------------------------------------------------------------------------]

C F C

[--------0-------------0-0-----------------------------------------------------------------------------]

[-----1----3------1------------------------------------------------------------------------------------]

[---------------2-----------------------------------------------------------------------------------------]

[-----------------------------------------------------------------------------------------------------------]

[-----------------------------------------------------------------------------------------------------------]

[-----------------------------------------------------------------------------------------------------------]





bottom of page