Pretty Woman


Aprenda a fazer um toque fácil e muito famoso no violão, um clássico da história do cinema, Pretty Woman.

Tablatura - Pretty Woman - Riff

Riff 1

]-------------------------------[

]-------------------------------[

]-------------------------------[

]-----------------------0-------[

]------------------2------------[

]---0---0----4-----------------[ 2 X

Riff 2

]-------------------------------------[

]-------------------------------------[

]-------------------------------------[

]---------------------0---4---2---0-[

]----------------2-------------------[

]-0---0----4------------------------[ 4X

Em código

Riff 1

60 60 64 52 40 (2x)

Riff 2

60 60 64 52 40 44 42 40 (4x)

QUER TOCAR VIOLÃO?

NO CURSO VIOLÃO INICIANTE O CAMINHO ESTÁ TRAÇADO PARA VOCÊ APRENDER

Cifra de violão - Pretty Woman

Cifra em PDF

A

Pretty woman

F#m

Walkin' down the street

A

Pretty woman

F#m

The kind I like to meet

D

Pretty woman

E

I don't believe you

You're not the truth

No one could look as good as you

(Riff 2)

Mercy

A

Pretty woman

F#m

Won't you pardon me

A

Pretty woman

F#m

I couldn't help but see

D

Pretty woman

E

That you look lovely as can be

Are you lonely just like me?

(Riff 2)

Segunda Parte:

Dm

Pretty woman

G

Stop a while

C

Pretty woman

Am

Talk awhile

Dm

Pretty woman

G C

Give your smile to me

Dm

Pretty woman

G

Yeah, yeah, yeah

C

Pretty woman

Am

Look my way

Dm

Pretty woman

G C A

Say you'll stay with me __



Terceira Parte:

F#m

'Cuz I need you

D E

I'll treat you right

A F#m

Come with me baby

D (Riff 2)

Be mine tonight

Quarta Parte:

A

Pretty woman

F#m

Don't walk on by

A

Pretty woman

F#m

Don't make me cry

D

Pretty woman

E

Don't walk away, hey, ok

If that's the way it must be, ok I guess

I'll go on home, it's late There'll be tomorrow night, but wait

What do I see?

(Riff)

Is she walkin' back to me?

Yeah, she's walkin' back to me

Oh, oh, pretty woman

ACORDES


Redes Sociais

  • Wix Facebook page
  • YouTube Social  Icon