Deu onda


Deu onda

VEJA EM PDF

Reggae

1E]---4---4----4----4----4---9--9---9---9---9---[

2B]---4---4----4----4----4---9--9---9---9---9---[

3G]-------------------------------------------------[

4D]-------------------------------------------------[

5A]-------------------------------------------------[

6E]---4------------------------9-------------------[

Solo

1E]-----------11--11---8--8-------------------[

2B]--9---9---------------------11---9---------[

3G]---------------------------------------10---[

4D]---------------------------------------------[

5A]---------------------------------------------[

6E]---------------------------------------------[

1E]------------------------------8-------------------------[

2B]--9---11---9--11--9--11-------9---------------------[

3G]---------------------------------------10---10----8---[

4D]--------------------------------------------------------[

5A]--------------------------------------------------------[

6E]--------------------------------------------------------[

1E]--------------11--11--8--8------------------------------------9--8-----[

2B]--9---9---9-------------------11---9-----9--11--9--11--9----------9-[

3G]--------------------------------------------------------------------------[

4D]--------------------------------------------------------------------------[

5A]--------------------------------------------------------------------------[

6E]--------------------------------------------------------------------------[

1E]-------------------------------8-------------[

2B]--9---11---9--11-------11-------11---9---[

3G]---------------------------------------------[

4D]---------------------------------------------[

5A]---------------------------------------------[

6E]---------------------------------------------[

1E]--------------------------------------------9---8------[

2B]--9---11---9---11----9---9----9---9-------------9--[

3G]--------------------------------------------------------[

4D]--------------------------------------------------------[

5A]--------------------------------------------------------[

6E]--------------------------------------------------------[

1E]--------------------------------------------8----------[

2B]--9---11---9---11----9---9----9---11-------11--9--[

3G]--------------------------------------------------------[

4D]--------------------------------------------------------[

5A]--------------------------------------------------------[

6E]--------------------------------------------------------[

Cifra

Tom: Ab

Ab5

Eu preciso te ter

Db5 Meu fechamento é você, mozão Ab5 Eu não preciso mais beber

Db5 E nem fumar maconha

Ab Que a sua presença me deu onda

Db O seu sorriso me dá onda

Ab Você sentando, mozão, me deu onda Que vontade de te ter, garota

Db Eu gosto de você, fazer o quê?

Ab O pai te ama Que vontade de te ter, garota

Db Eu gosto de você, fazer o quê? Ab O pai te ama, é O pai te ama

Db O pai te ama, é O pai te ama

Já pensou em ter 300 Cifras fáceis para iniciante ?

ACORDES

---------------------------------------------------------------------------------------------------------------------------------------------

BATIDA

-------------------------------------------------------------------------------------------------------------------------------------------------

CIFRA SEM PESTANA

Caso você quiera tocar sem pestana, basta mudar o tom pra Sol Maior - G, que está meio tom abaixo do Ab (Lá bemol Maior). ficando assim:

OBS: Para tocar o solo e as outras partes no tom de G, é necessário tocar sempre na casa anterior a que está escrita

Cifra

Tom: G

G5

Eu preciso te ter

C5 Meu fechamento é você, mozão G5 Eu não preciso mais beber

C5 E nem fumar maconha

G Que a sua presença me deu onda

C O seu sorriso me dá onda

G Você sentando, mozão, me deu onda Que vontade de te ter, garota

C Eu gosto de você, fazer o quê?

G O pai te ama Que vontade de te ter, garota

C Eu gosto de você, fazer o quê? G O pai te ama, é O pai te ama

C O pai te ama, é O pai te ama

Reggae

1E]---3---3----3----3----3---8--8---8---8---8---[

2B]---3---3----3----3----3---8--8---8---8---8---[

3G]-------------------------------------------------[

4D]-------------------------------------------------[

5A]-------------------------------------------------[

6E]---3------------------------8-------------------[

Redes Sociais

  • Wix Facebook page
  • YouTube Social  Icon