Andei só - Baixo


Andei só - Baixo - Toque fácil para o violão iniciante

Aprenda a tocar um toque fácil para o iniciante no violão - O baixo da música Andei só, da banda de reggae Natiruts. Para quem quer aprender como tocar violão, esse toque ajuda a desenvolver a mecânica dos dedos no violão

Em código das notas

64 64 52 54 54 42 64 52 (2x)

64 54 52 64 63 62 62 62 60 64 (2x)

64 64 52 54 54 42 64 52 (2x)

64 54 52 64 63 62 62 62 60 64

64 54 52 64 63 62 62 62 60 52

Em Tablatura

E|-----------------------------------------------|

B|-----------------------------------------------|

G|-----------------------------------------------|

D|----------------------------2-----------------|

A|------------2--4--4----------------2------|

E|--4--4----------------------4--------------| 2X

E|----------------------------------------------------------|

B|----------------------------------------------------------|

G|----------------------------------------------------------|

D|----------------------------------------------------------|

A|--------4----2------------------------------------------|

E|--4---------------4---3---2---2----2----0---4---| 2X

E|-----------------------------------------------|

B|-----------------------------------------------|

G|-----------------------------------------------|

D|----------------------------2-----------------|

A|------------2--4--4----------------2------|

E|--4--4----------------------4--------------| 2X

E|----------------------------------------------------------|

B|----------------------------------------------------------|

G|----------------------------------------------------------|

D|----------------------------------------------------------|

A|--------4----2------------------------------------------|

E|--4---------------4---3---2---2----2----0---4---|

E|----------------------------------------------------------|

B|----------------------------------------------------------|

G|----------------------------------------------------------|

D|----------------------------------------------------------|

A|--------4----2--------------------------------------2-|

E|--4---------------4---3---2---2----2----0--------|

CONHEÇA O CAMINHO MAIS FÁCIL PARA VOCÊ TOCAR VIOLÃO

Redes Sociais

  • Wix Facebook page
  • YouTube Social  Icon