Linkin Park - 6 Toques fáceis


Linkin Park - 6 Toques fáceis - RIFFS - Violão Guitarra

Aprenda a tocar no violão ou guitarra 6 toques fáceis da banda Linkin Park.

BAIXAR TABLATURA/CÓDIGO EM PDF

In the end

42 34 34 45 44 44 44 44 45

]-------------------------------------------------------------[

]-------------------------------------------------------------[

]---------4----4-------------------------------------------[

]---2-----------------5-----4---4---4------4---5----[

]-------------------------------------------------------------[

]-------------------------------------------------------------[

Numb

22 10 22 12 15 14

22 10 22 15 14 10

]----------0-----------2------5-------4------------------[

]----2---------2--------------------------------------------[

]-------------------------------------------------------------[

]-------------------------------------------------------------[

]-------------------------------------------------------------[

]-------------------------------------------------------------[

]----------0-----------5------4-------0------------------[

]----2---------2--------------------------------------------[

]-------------------------------------------------------------[

]-------------------------------------------------------------[

]-------------------------------------------------------------[

]-------------------------------------------------------------[

Crawling

36 17 14 27 25 24 25

]---------7--------4----------------------------------------[

]-----------------------------7------5-----4------5------[

]--6---------------------------------------------------------[

]-------------------------------------------------------------[

]-------------------------------------------------------------[

]-------------------------------------------------------------[

Burn it down

37 39 18 18 28 210

110 18 210

18 17 28

]-----------------8--------8-----------------------------[

]-------------------------------------8------10---------[

]---7----9-----------------------------------------------[

]-----------------------------------------------------------[

]-----------------------------------------------------------[

]-----------------------------------------------------------[

]----10-----8------------------------8-----7-----------[

]----------------------10----------------------------8----[

]-------------------------------------------------------------[

]-------------------------------------------------------------[

]-------------------------------------------------------------[

]-------------------------------------------------------------[

Leave out all the rest

18 210 18 210 18 210 18 210 112 210 112 210 112 210 112 210

112 213 112 213 112 213 112 213 110 210 110 210 110 210 110 210

What i´ve done 1

28 110 28 110 111 110 28 110

]---------10-----------10------11------10--------------10----[

]--8-------------8-------------------------------------8---------------[

]--------------------------------------------------------------------------[

]--------------------------------------------------------------------------[

]--------------------------------------------------------------------------[

]--------------------------------------------------------------------------[

What i´ve done 2

33 33 33 33 33 33 32 32

33 33 33 33 33 33 35 35

32 32 32 32 32 32 32 32

30 30 30 30 30 30 32 32

]---------------------------------------------------------------------------[

]---------------------------------------------------------------------------[

]---3--3--3--3--3--3--2--2--3--3--3--3--3--3--5--5----[

]---------------------------------------------------------------------------[

]---------------------------------------------------------------------------[

]---------------------------------------------------------------------------[

]--------------------------------------------------------------------------[

]--------------------------------------------------------------------------[

]---2--2--2--2--2--2--2--2--0--0--0--0--0--0--2--2---[

]--------------------------------------------------------------------------[

]--------------------------------------------------------------------------[

]--------------------------------------------------------------------------[

APRENDA A TOCAR VIOLÃO

Redes Sociais

  • Wix Facebook page
  • YouTube Social  Icon