Toque do Plantão da Globo no Violão


Toque do Plantão da Globo no Violão Iniciante

Vídeo mostrando como tocar a música do plantão de jornalismo da globo para o iniciante de violão. Somente a melodia está sendo tocada desta vinheta da globo - jornal Nacional.

Toque da vinheta do Plantão da Globo

Código

28 27 28 27 28 27 28 27 39

28 27 28 27 28 27 28 27 210 27 17 17

Tablatura

]-----------------------------------------------------[

]----8--7--8--7---8----7----8----7---------[

]-----------------------------------------------9----[

]------------------------------------------------------[

]------------------------------------------------------[

]------------------------------------------------------[

]-------------------------------------------------------------7----7-[

]---8--7--8--7---8----7----8----7----10---7--------------[

]------------------------------------------------------------------------[

]------------------------------------------------------------------------[

]------------------------------------------------------------------------[

]------------------------------------------------------------------------[

Você também vai gostar de;

APRENDA O TOQUE DA CHAMADA A COBRAR

TODAS AS MÚSICAS

MÚSICAS FÁCEIS

INTERMEDIÁRIO

SOLOS

DE FILME

ROCK

CIFRAS

APRENDA A TOCAR VIOLÃO

Redes Sociais

  • Wix Facebook page
  • YouTube Social  Icon