Deixe-me ir - 1 Kilo


TODAS AS CIFRAS

CIFRAS FÁCEIS

Deixe-me ir 1 Kilo - Cifra para violão

Imprimir em PDF


Aprenda a tocar a música Deixe-me ir, da banda 1 Kilo, no violão. Vídeo aula com cifra e tablatura do dedilhado e do solo, além da batida. Nesta versão simplificada, foi mantida a mesma tonalidade da música original, o que foi mudada foi a posição dos acordes, deixando de ser em pestanas para ficarem de um jeito mais fácil, na 1ª região do braço do violão. A batida também está mostrada na cifra.

Tom: F

F7M Menina, me dá sua mão Dm7(9) Pense bem antes de agir Am7 G Se não for agora, te espero lá fora


Então deixe-me ir

F7M Dm7(9) Um dia te encontro nessas suas voltas

Minha mente é mó confusão Am7 Solta a minha mão que eu sei que cê volta G O tempo mostra nossa direção

F7M Se eu soubesse que era assim eu nem vinha Dm7(9) Tô bebendo champanhe e catando latinha Am7 Mas tive que perder


Pra aprender dar valor G Pra você entender seu amor


Mas não quer ser mais minha


F7M Então diz que não me quer por perto Dm7(9) Mas diz olhando nos meus olhos Am7

Desculpe se eu não fui sincero G Mas a vida que eu levo, erros lógicos

F7M Óbvio, cada letra em rap é um código Dm7(9) Sórdido, psicografado som sólido Am7 bito, nunca fui de fazer

Som pra público G Verso meu universo

Peço que entenda meu mundo


F7M Dm7(9) Mina, a gente briga por bobeira demais

A gente pira, o tempo vira Am7 Por bobeira demais G O amor é bandeira de paz

Mas se não der, vai em paz, meto o pé

F7Mvivo e quero viver

Ensinar e aprender Dm7(9) Menina, eu sigo com ou sem você

Mas tente entender Am7 Eu tentei, a vida é curta

Pra chorar pela ex G Eu falei pra mim mesmo

Enquanto eu chorava outra vez

F7M Dm7(9) É, eu vou ficar, mas vou pela manhã Am7 Sem me despedir, vou antes do ca

Que é pra não te acordar G Sei que não sou nenhum Don Juan

Sou todo errado F7M Mas tô certo que você me quer


Dm7(9) Eu vou ficar mas vou pela manhã Am7 Sem me despedir, vou antes do ca

Que é pra não te acordar G Sei que não sou nenhum Don Juan

Sou todo errado

Mas tô certo que você me quer

F7M Ei amor, sei que tá tão difícil Dm7(9) Eu falar de amor Am7 Porque lá fora é tanto ódio e rancor G Que eu preciso muito te falar

F7M Ei amor, eu tô contigo Dm7 Independente do caô Am7 Cê sabe que aonde você for, eu vou

E já passou da hora G Da gente se encontrar


F7M Noites em claro Dm7(9) Tentando não me envolver Am7 G Seja o que Deus quiser, deixe-me ir


F7M Dm7(9) Não vou me despedir porque dói Am7 Não vou brigar pra ficar G Quero estar contigo e sentir F7M Ser seu e


Sem ter que justificar Dm7(9) Am7 O tempo em que eu sumi G Seja o que Deus quiser, deixe-me ir

F7M E se amar, nega Dm7(9) Cê sabe que contigo nada vai me abalar Am7 A viagem é longa, então faça a mala G Na vibe mais positiva, no pique mandala

F7M Esse papo de que se tu não existisse Dm7(9) Eu te inventaria é tão clichê

Mas cai tão bem Am7 Quando se trata de vo

Só vem comigo G Cê não vai se arrepender

Só vem comigo

Cê não vai se arrepender

F7M Noites em claro Dm7(9) Tentando não me envolver Am7 G Seja o que Deus quiser

Acordes

Batida

Introdução dedilhado

F7M

]---------------------------0--------------------------0----[

]----------------1---------------1--------------------------[

]---------2----------2---------------2---------------------[

]----3---------------------------------------3--------------[

]--------------------------------------------------------------[

]--------------------------------------------------------------[

Dm7(9)

]---------------------------0---------------------------------[

]----------------6---------------6-------------------6-----[

]---------5----------5---------------5---------------------[

]----0---------------------------------------0--------------[

]--------------------------------------------------------------[

]--------------------------------------------------------------[

Am7

]---------------------------0--------------------------0----[

]----------------1---------------1--------------------------[

]---------0----------0---------------0---------------------[

]--------------------------------------------------------------[

]----0----------------------------------------0--------------[

]--------------------------------------------------------------[

G

]---------------------------3--------------------------3----[

]----------------3---------------3--------------------------[

]---------0----------0---------------0---------------------[

]--------------------------------------------------------------[

]--------------------------------------------------------------[

]----3---------------------------------------3---------------[

Verso dedilhado

F7M

]---------------------------0-------[

]----------------1------------------[

]---------2----------2------------[

]----3-----------------------------[

]------------------------------------[

]------------------------------------[

Dm7(9)

]---------------------------0-------------------[

]----------------6--------------------6--------[

]---------5----------5-------------------------[

]----0------------------------------------------[

]-------------------------------------------------[

]-------------------------------------------------[

Am7

]---------------------------0--------------[

]----------------1-------------------------[

]---------0----------0--------------------[

]--------------------------------------------[

]----0--------------------------------------[

]---------------------------------------------[

G

]---------------------------3-------------[

]----------------3------------------------[

]---------0----------0-------------------[

]-------------------------------------------[

]-------------------------------------------[

]----3-------------------------------------[

Solo da Introdução

]---------------------8----------------8--------10-------[

]-----8/10----------------10---------------------------[

]--------------------------------------------------------------[

]--------------------------------------------------------------[

]--------------------------------------------------------------[

]--------------------------------------------------------------[

]---------------------8----------------8--------12-------[

]-----8/10----------------10---------------------------[

]--------------------------------------------------------------[

]--------------------------------------------------------------[

]--------------------------------------------------------------[

]--------------------------------------------------------------[

.

]---------------------8----------------8--------10-----[

]-----8/10----------------10-------------------------[

]------------------------------------------------------------[

]------------------------------------------------------------[

]------------------------------------------------------------[

]------------------------------------------------------------[

.

]-----------7-----------8h10p8---------------------[

]-----8----------8--------------------------8-----------[

]-----------------------------------------------------------[

]-----------------------------------------------------------[

]-----------------------------------------------------------[

]-----------------------------------------------------------[

Deixe-me ir - 1 kilo - Cifras simplificadas

Redes Sociais

  • Wix Facebook page
  • YouTube Social  Icon