Day tripper - The Beatles


Aprenda a tocar um riff fácil para iniciante no violão, a música Day tripper, dos Beatles. Tablatura e código das notas

EM CÓDIGO

60

63 64 52 42 20

52 44 52 40 42

EM TAB

---------------------------------------------------|

---------------------------------------------------|

---------------------------------------------------|

--------------------------------2-----0---------|

-------------------------2-----------------------|

--0------3----4-------------------------------|

---------------------------------------------------|

---------------------------------------------------|

---------------------------------------------------|

--------------4------------0------2------------|

-------2------------2---------------------------|

--------------------------------------------------|

APRENDA A TOCAR DE VEZ

Redes Sociais

  • Wix Facebook page
  • YouTube Social  Icon