Vai malandra

Aprenda a fazer o toque da música Vai malandra, da Anitta, no violão. Toque fácil para iniciante , com acorde e batida também.

CÓDIGO

33 32 30 40 40

33 32 30 44 30 32 32 30 30

44 40 40

32 30 44 40 40

TABLATURA

]--------------------------------------------------------------|

]--------------------------------------------------------------|

]-3--2--0------------3--2--0-------0--2--2-0--0-|

]---------------0--0----------------4----------------------|

]--------------------------------------------------------------|

]--------------------------------------------------------------|

]--------------------------------------------------|

]---------------------------------------------------|

]--------------------2--0------------------------|

]--4--0--0----------------4--0--0----------|

]---------------------------------------------------|

]---------------------------------------------------|

Redes Sociais

  • Wix Facebook page
  • YouTube Social  Icon