Vinheta do Globo Esporte


Aprenda a tocar a vinheta da abertura do programa Globo Esporte. Melodia fácil para Iniciante no violão.

Em tablatura:

-------------------------------------------------------[

-------------------------0---------------------------[

-------------------------------2--2--1------------[

-------------------2------------------------2------[

---2------4----------------------------------------[

------------------------------------------------------[

----------------------------------------------------[

--0------------------------------0---------------[

-------2--2--1----------1---------------------[

--------------------2-----------------------------[

---------------------------------------------------[

---------------------------------------------------[

---4-----------0---------------------------------[

---------2----------------------------------------[

---------------------------------------------------[

-----------------------------------2--------------[

-----------------------------------2--------------[

-----------------------------------0--------------[

.

Em código das notas:

52 54 42

20 32 32 31 42

20 32 32 31 42

31 20

14 22 10

Redes Sociais

  • Wix Facebook page
  • YouTube Social  Icon