Hino do Santos


Hino do Santos Futebol Clube para violão, solo (melodia) e os acordes (harmonia) .

TABLATURA E CIFRA EM PDF

Introdução

Cm Fm

-----------8--8--8---11---------------8--8---8----13---

--8--8--------------------------9--9---------------------------

---------------------------------------------------------------------

--------------------------------------------------------------------

--------------------------------------------------------------------

--------------------------------------------------------------------

G7 Cm

-----------10--10--10---15----------15--15---15--15-----15--

--9--9--------------------------------------------------------------------------

-----------------------------------------------------------------------------------

-----------------------------------------------------------------------------------

-----------------------------------------------------------------------------------

-----------------------------------------------------------------------------------

Cm G7 Cm

---------------------3-----------------------------------------

-----------3--4--------6---3-------------3----------------

-------5---------------------------4--------------5----------

---5------------------------------------5---------------------

-----------------------------------------------------------------

-----------------------------------------------------------------


Parte 1

Fm C7 Fm

-----------3--4---8---6---3-------------3-----------

------6----------------------------5---------------6----

--5------------------------------------5------------------

-------------------------------------------------------------

-------------------------------------------------------------

-------------------------------------------------------------

Bb7 Eb

---6----4--6---4--------------6---4---6---4---3-----

------------------------6----3--------------------------------

-----------------------------------------------------------------

-----------------------------------------------------------------

-----------------------------------------------------------------

-----------------------------------------------------------------

Dm5-/7 G7

--------------------------5----8---11--10---8---8---7------

--4------3--3---7-------------------------------------------------

------5---------------------------------------------------------------

------------------------------------------------------------------------

------------------------------------------------------------------------

------------------------------------------------------------------------




Repete parte 1

Parte 2

Bb7 Eb

--11---11--------6--8--10--6---------------

-------------------------------------------9---8----

-------------------------------------------------------

-------------------------------------------------------

-------------------------------------------------------

-------------------------------------------------------

Fm Bb7 Eb

----------------------------------------------

---9---6--6---------------6----8-------

-------------------8---8--------------------

-----------------------------------------------

-----------------------------------------------

------------------------------------------------

Fm Cm

-------------------------8---------------------------------8---

---6--------6----9------------8---6-------6--8----------

--------9----------------------------------8-------------------

------------------------------------------------------------------

------------------------------------------------------------------

------------------------------------------------------------------

Dm5-/7 G7 Cm

---10-------------------------11---10---8-----

-----------11---9---8----------------------------

-------------------------------------------------------

-------------------------------------------------------

-------------------------------------------------------

-------------------------------------------------------

Repete tudo

Cifra do Hino do Santos

G7

Santos, Santos, GOOOOOL

Cm G7 Cm

Agora quem dá bola é o Santos,

Fm C7 Fm

O Santos é o novo Campeão,

Bb7 Eb

Glorioso Alvi-Negro praiano,

Dm5-/7 G7

Campeão absoluto desse ano,

Bb7 Eb

Santos...Santos sempre Santos,

Fm Bb7 Eb

Dentro ou fora do Alçapão,

Fm

Jogue onde jogar,

Cm

És o leão do mar,

Dm5-/7 G7 Cm

Salve o nosso campeão.

Redes Sociais

  • Wix Facebook page
  • YouTube Social  Icon