Lugar Secreto

Gabriela Rocha

Lugar secreto - Gabriela Rocha - Cifra

Primeira Parte:

F7M G

Tu és tudo o que eu mais quero

F7M G

O meu fôlego, Tu és

F7M G

Em Teus braços, é o meu lugar

F7M G

Estou aqui, estou aqui

F7M G

Pai, eu amo Sua presença

F7M G

Teu sorriso é vida em mim

F7M G

Eu seguro em Suas mãos

F7M G

Confio em Ti, confio em Ti

Refrão:

F7M

Quero ir mais fundo

Dm7(9)sus

Leva-me mais perto

Am7

Onde eu Te encontro

Em7

No lugar secreto

F7M

Aos Teus pés, me rendo

Dm7(9)sus Am7 G

Pois a Tua glória quero ver __

Base Solo:

F7M Dm7(9)sus Am7 Em7

F7M Dm7(9)sus Am7 G

Primeira Parte:

F7M G

Pai, eu amo Sua presença

F7M G

Teu sorriso é vida em mim

F7M G

Eu seguro em Suas os

F7M G

Confio em Ti, confio em Ti

Refrão:

F7M

Quero ir mais fundo

Dm7(9)sus

Leva-me mais perto

Am7

Onde eu Te encontro

Em7

No lugar secreto

F7M

Aos Teus pés, me rendo

Dm7(9)sus Am7 G

Pois a Tua glória quero ver __

F7M

Quero ir mais fundo

Dm7(9)sus

Leva-me mais perto

Am7

Onde eu Te encontro

Em7

No lugar secreto

F7M

Aos Teus pés, me rendo

Dm7(9)sus Am7 G

Pois a Tua glória quero ver __

Segunda Parte:

F7M

Tudo o que eu mais quero é Te ver

Dm7(9)sus

Me envolva com Tua glória e poder

Am7

Tua majestade é real

Em7

Tua voz ecoa em meu ser

F7M

Tudo o que eu mais quero é Te ver

Dm7(9)sus

Me envolva com Tua glória e poder

Am7

Tua majestade é real

Em7

Tua voz ecoa em meu ser

F7M

Tudo o que eu mais quero é Te ver

Dm7(9)sus

Me envolva com Tua glória e poder

Am7

Tua majestade é real

Em7

Tua voz ecoa em meu ser

F7M

Tudo o que eu mais quero é Te ver

Dm7(9)sus

Me envolva com Tua glória e poder

Am7

Tua majestade é real

G

Tua voz ecoa em meu ser

Refrão:

F7M

Quero ir mais fundo

Dm7(9)sus

Leva-me mais perto

Am7

Onde eu Te encontro

Em7

No lugar secreto

F7M

Aos Teus pés, me rendo

Dm7(9)sus Am7 G

Pois a Tua glória quero ver __

Base Solo:

F7M Dm7(9)sus Am7 Em7

F7M Dm7(9)sus Am7 G F7M

Introdução - Tab

|--8--7--8------8----------------------|

|-------------8-------6---5-------------|

|-------------------------------5---7----|

|-----------------------------------------|

|-----------------------------------------|

|-----------------------------------------|

Solo - Tab

|------------------------------------------------|

|---------5--8--5--5-----------5--8--5--5--|

|--5--7------------------5--7-----------------|

|------------------------------------------------|

|------------------------------------------------|

|------------------------------------------------|

|------------------------------------------------|

|---------5--8--10--10-----10--12--5--5--|

|--5--7-----------------------------------------|

|------------------------------------------------|

|------------------------------------------------|

|------------------------------------------------|

Introdução - Código

18 17 18 28 18 26 25 35 37

Solo - Tab

35 37 25 28 25 25

35 37 25 28 25 25

35 37 25 28 210 210

210 212 25 25

Redes Sociais

  • Wix Facebook page
  • YouTube Social  Icon