top of page
Buscar

5ª Sinfonia - Beethoven

Aprenda a fazer a melodia do início da 5ª sinfonia do Beethoven. Toque fácil para iniciantes no violão.





5ª sinfonia - Beethoven
.pdf
Fazer download de PDF • 16KB



Tablatura


|--------------------------------------------------|

|--------------------------------------------------|

|---0--0--0------------------------------------|

|----------------1-----3---3---3---0--------|

|--------------------------------------------------|

|--------------------------------------------------|



|-----------------------------------------------------------------------|

|------------------------------------------------4---4---4----1---|

|---0--0--0----------1---1---1---0----------------------------|

|----------------1----------------------------------------------------|

|-----------------------------------------------------------------------|

|-----------------------------------------------------------------------|



|----------------------------------------------1---1----1----------|

|----------------------------------------------------------------3----|

|---0--0--0----------1---1---1---0----------------------------|

|----------------0----------------------------------------------------|

|-----------------------------------------------------------------------|

|-----------------------------------------------------------------------|



|--3---3---1------------3----3----1-----------3---3---1------------3--|

|-------------------4-------------------------4--------------------4---1------|

|-----------------------------------------------------------------------------------|

|-----------------------------------------------------------------------------------|

|-----------------------------------------------------------------------------------|

|-----------------------------------------------------------------------------------|



Código



30 30 30 41

43 43 43 30



30 30 30 41

31 31 31 30

24 24 24 21



30 30 30 40

31 31 31 30

11 11 11 23


13 13 11 24

13 13 11 24

13 13 11 24

21 13

תגובות


bottom of page