top of page
Buscar

Baile de favela






Melodia na terceira corda (tom original Gm)


Gm

---0--3--2--0----0--3--3--3--2--0-----



---0--3--2--0----0--3--3--3--5--5-----


Cm

---5--3--5--3----5--5------5--3--5--3----5--5-


D7

---5--5--5--3----7--7--7--7---2--2--2--2--0--





-----------------------------------------------------------------




Harmonia sem pestana:


Se você quiser tocar sem pestana, mude para o tom de lá menor e use os acordes abaixo:


Am - Dm - E7



Melodia no tom de Am


Am

---2--5--4--2----2--5--5--5--4--2-----



---2--5--4--2----2--5--5--5--7--7-----


Dm

---7--5--7--5----7--7------7--5--7--5----7--7-


E7

---7--7--7--5---9--9--9--9---4--4--4--4--2--





Comentarios


bottom of page