top of page
Buscar

O Poderoso chefão


O Poderoso chefão

Melodia e acordes para violão

Veja como tocar a melodia solo da música do filme O Poderoso Chefão (The Godfather) no violão.







Tablatura



O Poderoso Chefão - Tab - Melodia Solo com acordes
.pdf
Download PDF • 19KB


Parte A (2x)



Am F Am

|--------5--8--7--5--8--5--7--5------------------|

|---5--------------------------------------6--8--5----|

|-----------------------------------------------------------|

|-----------------------------------------------------------|

|-----------------------------------------------------------|

|-----------------------------------------------------------|


Am F Dm

|--------5--8--7--5--8--5--7--5------------------|

|---5--------------------------------------5--4---------|

|-----------------------------------------------------7----|

|-----------------------------------------------------------|

|-----------------------------------------------------------|

|-----------------------------------------------------------|


D° Am

|-------------4----7--------------------4---5---------|

|--------6--------------------------6--------------------|

|---7--------------------------7-------------------------|

|-----------------------------------------------------------|

|-----------------------------------------------------------|

|-----------------------------------------------------------|


F E7 Am

|-----------3---1--0--3--1--1--0--0--------------|

|-------1--------------------------------------------------|

|----2-----------------------------------------1--2-----|

|-----------------------------------------------------------|

|-----------------------------------------------------------|

|-----------------------------------------------------------|



Parte B


G C

|---5--5--4--3-------7--5----------------------|

|-----------------------------------6--5-------------|

|-------------------------------------------------------|

|-------------------------------------------------------|

|-------------------------------------------------------|

|-------------------------------------------------------|


Bb E

|-------------------------------------------------------|

|---5--8--5--3-------3--6--3--5--------------|

|-------------------------------------------------------|

|-------------------------------------------------------|

|-------------------------------------------------------|

|-------------------------------------------------------|



Repete Parte A



Harmonia


Parte A (2x)

Am F / Am / Am F / Dm / D° / Am / F E7 / Am /


Parte B

G / C / Bb / E


Repete Parte A







Comentários


bottom of page