TOQUES FÁCEIS

Veja abaixo e riffs e melodias fáceis para violao

 Código            

             30   23        30   24          30   24         30     23

 

Tablatura

1E]-----------------------------------------------------------------------------------------[

2B]----------------3-------------------4--------------------4---------------------3----[

3G]---------0------------------0-------------------0--------------------0--------------[

4D]-----------------------------------------------------------------------------------------[

5A]-----------------------------------------------------------------------------------------[

6E]-----------------------------------------------------------------------------------------[

Yeah - Usher

Come as you are

Nirvana

CÓDIGO 

 

60  60  61  62  50  62  50  62  62  61  60  52  60  60   1x

 

52  60  61  62  50  62  50  62  62  61  60  52  60  60 

 

 

RIFF

 

1E]--------------------------------------------------------------------------------------------------------------------[

2B]--------------------------------------------------------------------------------------------------------------------[

3G]--------------------------------------------------------------------------------------------------------------------[

4D]--------------------------------------------------------------------------------------------------------------------[

5A]---------------------------------0----------0----------------------------------------2--------------------------[

6E]---------0----0----1----2----------2---------2-----2-----1------0--------------------0-------0-------[

 

 

1E]--------------------------------------------------------------------------------------------------[

2B]--------------------------------------------------------------------------------------------------[

3G]--------------------------------------------------------------------------------------------------[

4D]--------------------------------------------------------------------------------------------------[    

5A]-----2----------------------0--------0-----------------------------2-------------------------[

6E]-----------0----1----2---------2---------2----2----1----0----------0----0------------[

 

 

 

 

 

What´s make you beautifull

One direction

Código

            E      E    A         A     B     B      B      B

           60   60   50      50   52   52    52     52   

 

Tablatura

1E]----------------------------------------------------------------------[

2B]----------------------------------------------------------------------[

3G]----------------------------------------------------------------------[

4D]----------------------------------------------------------------------[

5A]-----------------------0------0---2-----2-----2-----2---------[

6E]-------0------0-----------------------------------------------------[   

Smoke on the Water

Deep Purple

 

Código

 

63   51   53  

63   51   54   53  

63   51   53   51   63

 

Tablatura

]-----------------------------------------------------------------------------------------------------[

]-----------------------------------------------------------------------------------------------------[

]-----------------------------------------------------------------------------------------------------[

]-----------------------------------------------------------------------------------------------------[

]-----------1----3-------------1----4----3----------------1--3-------------1----------------[

]-----3---------------------3---------------------------3-----------------------------3----------[

 

 

]-----------------------------------------------------------------------------------------------------[

]-----------------------------------------------------------------------------------------------------[

]-----0----3----5----------0----3----6----5---------0----3----5----3----0------------[

]-----0----3----5----------0----3----6----5---------0----3----5----3----0------------[

]-----------------------------------------------------------------------------------------------------[

]-----------------------------------------------------------------------------------------------------[

Código

42  42   45   42  40   53   52

 

Tablatura

 

1E]-----------------------------------------------------------------[

2B]-----------------------------------------------------------------[

3G]-----------------------------------------------------------------[

4D]----------2----2----5----2----0---------------------------[

5A]-------------------------------------------3-----2------------[

6E]-----------------------------------------------------------------[

 

Seven Nation Army

White Stripes

Que país é esse

Paralamas do sucesso

Código

 

25  17  25  17  25  17    

 

25   17   23   15

 

25   13   25    13    25   13

 

25   13    25    23    15

Tablatura

 

1E]----------7------7-------7------------7--------5---------------3--------3--------3---------------3---------------5------[

2B]-----5------5------5------------5--------3----------------5--------5--------5---------------5--------5----3------------[

3G]--------------------------------------------------------------------------------------------------------------------------------------[

4D]--------------------------------------------------------------------------------------------------------------------------------------[

5A]--------------------------------------------------------------------------------------------------------------------------------------[

6E]--------------------------------------------------------------------------------------------------------------------------------------[

Equalize - Pitty

Código

42   44    30     20    23

42   44    30     23    20 

42   44    30     20    23      D

Tablatura

 

1E]------------------------------------------------------------------------------------------------------------------------------------[

2B]-----------------------------------0-------3--------------------------------------------------------3------------0------------[

3G]--------------------------0--------------------------------------------------------------0---------------------------------------[

4D]----2-------4----------------------------------------------------2--------4---------------------------------------------------[

5A]------------------------------------------------------------------------------------------------------------------------------------[

6E]------------------------------------------------------------------------------------------------------------------------------------[

 

 

1E]---------------------------------------------------------------2----------------------------[

2B]-----------------------------------0-------3----------------3----------------------------[

3G]--------------------------0----------------------------------2----------------------------[

4D]----2-------4----------------------------------------------0-----------------------------[

5A]---------------------------------------------------------------------------------------------[

6E]---------------------------------------------------------------------------------------------[

Música do filme Rocky

Tablatura            

    

1E]-------0---3---5--------3---5---0-------0---3---5------3---5---0----------[

2B]-------------------------------------------------------------------------------------------[

3G]-------------------------------------------------------------------------------------------[

4D]-------------------------------------------------------------------------------------------[

5A]-------------------------------------------------------------------------------------------[

6E]-------------------------------------------------------------------------------------------[

 

 

1E]----------------------------------0--------------------------------------------1--0-----[

2B]------3---1---3---1---3---------------1--1--0--0--------------------------------[

3G]------------------------------------------------------------------2--2--0--------------[

4D]-------------------------------------------------------------------------------------------[

5A]-------------------------------------------------------------------------------------------[

6E]-------------------------------------------------------------------------------------------[

 

 

1E]------0---3---5--------3---5---0-------0---3---5------3---5---0----------[

2B]-----------------------------------------------------------------------------------------[

3G]-----------------------------------------------------------------------------------------[

4D]-----------------------------------------------------------------------------------------[

5A]-----------------------------------------------------------------------------------------[

6E]-----------------------------------------------------------------------------------------[

 

 

 

1E]---------------------------------0----------8--8--7--7--5--5--3-------13--12---[

2B]--3---1---3-------1---3------------------------------------------------------------------[

3G]-----------------------------------------------------------------------------------------------[

4D]-----------------------------------------------------------------------------------------------[

5A]-----------------------------------------------------------------------------------------------[

6E]-----------------------------------------------------------------------------------------------[

10  13   15   

 

13   15   10

 

10  13   15   

 

13   15   10

 

23  21  23   21  23  10  

 

21  21  20  20   32  32   30  

 

 11  10

 

Em código

10   13   15   

 

13   15   10

 

10   13   15   

 

13   15   10

 

23    21   23    21    23   10  

 

18    18  17  17   15  15   13  

 

113   112

 

CÓDIGO

 

16   13   15   11  13  10   11   23   10   21   23   21   32   21   21

 

 

TABLATURA

 

 

1E]--------6----3----5----1----3----0----1----------0----------------------------------------------[

2B]----------------------------------------------------3----------1----3----1----------1----1---------[

3G]------------------------------------------------------------------------------------2---------------------[

4D]------------------------------------------------------------------------------------------------------------[

5A]------------------------------------------------------------------------------------------------------------[

6E]------------------------------------------------------------------------------------------------------------[

 

 

 

Asa Branca

Solinho 

Código

 

33  11  

24  23  21   16  11

24  23  21   16  11

24  23  24   21

 

 

Tablatura

 

]---------1------------------------6------------1-------------------------------6-----1-----------------------------------[

]--------------------4--3--1----------------------------------4--3--1----------------------------4--3--4--1--------[

]---3---------------------------------------------------------------------------------------------------------------------------[

]--------------------------------------------------------------------------------------------------------------------------------[

]--------------------------------------------------------------------------------------------------------------------------------[

]--------------------------------------------------------------------------------------------------------------------------------[

Música do filme Star Wars

Parabéns pra você

Código

 

                   

 30      30     32     30      21    20

SOL   SOL   LÁ    SOL    DÓ    SI

 

                                                

30      30      32     30      23     21    21

SOL  SOL    LÁ    SOL    RÉ    DÓ    DÓ

 

                                           

10     10     13     10      21     20     32

MI     MI     FÁ     MI      DÓ      SI     LÁ

 

              

11    11     10      21      23      21       21

FÁ    FÁ     MI      DÓ     RÉ      DÓ      DÓ

Tablatura

 

1E]--------------------------------------------------------------------------------------------------------------[

2B]-----------------------------1-----0----------------------------------------3-----1-----1--------------[

3G]-----0----0-----2----0-----------------------0----0-----2-----0------------------------------------[

4D]--------------------------------------------------------------------------------------------------------------[

5A]--------------------------------------------------------------------------------------------------------------[

6E]--------------------------------------------------------------------------------------------------------------[

 

 

1E]-------0----0----3----0-----------------------------1-----1-----0--------------------------------------[

2B]------------------------------1----0------------------------------------------1-----3----1----1---------[

3G]--------------------------------------------2------------------------------------------------------------------[

4D]----------------------------------------------------------------------------------------------------------------[

5A]----------------------------------------------------------------------------------------------------------------[

6E]----------------------------------------------------------------------------------------------------------------[

Código

 

13     11     10     23   10    11     13       13       13

SOL   FÁ    MI    RÉ    MI    FÁ    SOL    SOL    SOL

 

15     13      11    11     11

LÁ   SOL    FÁ     FÁ     FÁ

 

 13     11   10     10     10

SOL   FÁ    MI    MI     MI

 

21     21    15     15     15

DÓ    DÓ    LÁ    LÁ     LÁ

 

17    15    13      13       13

SI    LÁ    SOL    SOL    SOL

 

10    11      13      10    11      13       11     10     23      21             18   18

MI    FÁ     SOL     MI    FÁ    SOL     FÁ     MI     RÉ     DÓ              DÓ  DÓ

 

Tablatura

 

1E]-----------3----1----0-----------0----1----3-----3----3---------5-----3-----1----1----1------------3----1----0----0----0--------[

2B]------------------------------3-------------------------------------------------------------------------------------------------------------------------[

3G]---------------------------------------------------------------------------------------------------------------------------------------------------------[

4D]---------------------------------------------------------------------------------------------------------------------------------------------------------[

5A]---------------------------------------------------------------------------------------------------------------------------------------------------------[

6E]---------------------------------------------------------------------------------------------------------------------------------------------------------[

 

1E]--------------------5----5----5---------7-----5-----3-----3-----3--------0----1----3------0----1----3----1----0--------------------------------8-------8---------[

2B]-----1----1----------------------------------------------------------------------------------------------------------------------------3-----1--------------------------------------[

3G]-----------------------------------------------------------------------------------------------------------------------------------------------------------------------------------------[

4D]-----------------------------------------------------------------------------------------------------------------------------------------------------------------------------------------[

5A]-----------------------------------------------------------------------------------------------------------------------------------------------------------------------------------------[

6E]------------------------------------------------------------------------------------------------------------------------------------------------------------------------------------------[

 

 

Atirei o pau no gato

Código

20  22  10  22  24  12  24  10

 

 

Tablatura

 

1E]---------------------0-----------------2-----------0------[

2B]-------0-----2----------2----4-----------4-------------[

3G]--------------------------------------------------------------[

4D]--------------------------------------------------------------[

5A]--------------------------------------------------------------[

6E]--------------------------------------------------------------[

 

 

 

 

 

Chamada a cobrar