INÍCIO  > MÚSICAS >  TREVO

Trevo

Anavitória

63     53

Tu é trevo de quatro folhas

   63

É     manhã de domingo à toa

52

      Conversa rara e boa

60

      Pedaço de sonho

        53

Que faz meu querer acordar

         63          55

Pra vida, ai ai ai

 

 

63         53

Tu que tem esse abraço casa

     63 

Se decidir bater asa

      52                                   60

Me leva contigo pra passear

     53                                                63

Eu juro afeto e paz não vão te faltar

        62 

Ai ai ai

 

60 

Ah...

            53                                             63

Eu só quero o leve da vida pra te levar

       62

E o tempo para

 

60

Ah...

       53                                                  55

É a sorte de levar a hora pra passear

                                   52          53

Pra cá e pra lá, pra e pra

                             63   53   63   53

Quando aqui tu

 

 

(repete tudo)

 

 

60   53       63      62

Tu               Tu

 

60   53     55

Tu             Tu

 

[Refrão Final]

 

60

Ah...

            53                                              63 

Eu só quero o leve da vida pra te levar

        62

E o tempo para

 

60

Ah...

        53                                                55

É a sorte de levar a hora pra passear

                                  52           53

Pra cá e pra lá, pra e pra

                            63

Quando aqui tu

 

     53                                 63 

É trevo de quatro folhas __

    53                                        63

É trevo de quatro folhas é  __

     53                                   63 

É trevo de quatro folhas  __ 

    53                                      63

É trevo de quatro folhas é __

E|------------------------------------------------------------------------------------|

B|------------------------------------------------------------------------------------|

G|--------0------0-------0--------0-----------0--------0-------0-------0---|

D|--------0------0-------0--------0-----------0--------0-------0-------0---|

A|--------------------------------------------3---------3-------3-------3--------|

E|---3------3---------3--------3-------------------------------------------------|

    

         Tú                              é tre         vo  deuatrofolhasé

 

E|------------------------------------------------------------------------------------|

B|------------------------------------------------------------------------------------|

G|--------0------0-------0--------0-----------0--------0-------0-------0---|

D|--------0------0-------0--------0-----------0--------0-------0-------0---|

A|--------------------------------------------2---------2-------2-------2--------|

E|---3------3---------3--------3-------------------------------------------------|

    

             manhãdedomigoàtoa        conversararaeboa

 

E|------------------------------------------------------------------------------------|

B|------------------------------------------------------------------------------------|

G|--------0------0-------0--------0-----------0--------0-------0-------0---|

D|--------0------0-------0--------0-----------0--------0-------0-------0---|

A|--------------------------------------------3---------3-------3-------3--------|

E|---0------0---------0--------0-------------------------------------------------|

    

            pedaçodesonho que faz   meuquereracordarpravi

 

E|-------------------------------------------------------------------------------------|

B|-------------------------------------------------------------------------------------|

G|--------0------0---------0-------0-----------0--------0-------0-------0---|

D|--------0------0---------0-------0-----------0--------0-------0-------0---|

A|--------------------------------------------5---------5-------5-------5---------|

E|---3------3---------3--------3--------------------------------------------------|

    

         da                      ai   ai    ai

 

E|-------------------------------------------------------------------------------------|

B|-------------------------------------------------------------------------------------|

G|--------0------0---------0-------0-----------0--------0-------0-------0---|

D|--------0------0---------0-------0-----------0--------0-------0-------0---|

A|--------------------------------------------3---------3-------3-------3---------|

E|---3------3---------3--------3--------------------------------------------------|

    

         tu                            que tem    esseabraçocasa  se de

 

E|-------------------------------------------------------------------------------------|

B|-------------------------------------------------------------------------------------|

G|--------0------0---------0-------0-----------0--------0-------0-------0---|

D|--------0------0---------0-------0-----------0--------0-------0-------0---|

A|--------------------------------------------2---------2-------2-------2---------|

E|---3------3---------3--------3--------------------------------------------------|

    

             cidir bater asa   me  le       vacontigo pra passe

 

E|-------------------------------------------------------------------------------------|

B|-------------------------------------------------------------------------------------|

G|--------0------0---------0-------0-----------0--------0-------0-------0---|

D|--------0------0---------0-------0-----------0--------0-------0-------0---|

A|--------------------------------------------3---------3-------3-------3---------|

E|---0------0---------0--------0--------------------------------------------------|

  

        ar                              eu  ju       ro  afetoepaznãovãotefal

 

E|-------------------------------------------------------------------------------------|

B|-------------------------------------------------------------------------------------|

G|--------0------0---------0-------0-----------0--------0-------0-------0---|

D|--------0------0---------0-------0-----------0--------0-------0-------0---|

A|--------------------------------------------------------------------------------------|

E|---3------3---------3--------3--------2---------2-------2-------2----------|

  

        tar                       ai  ai   ai

 

E|-------------------------------------------------------------------------------------|

B|-------------------------------------------------------------------------------------|

G|--------0------0---------0-------0-----------0--------0-------0-------0---|

D|--------0------0---------0-------0-----------0--------0-------0-------0---|

A|--------------------------------------------3---------3-------3-------3---------|

E|---0------0---------0--------0--------------------------------------------------|

  

        Ah                                 eusóqueroolevedavidapramele

 

E|-------------------------------------------------------------------------------------|

B|-------------------------------------------------------------------------------------|

G|--------0------0---------0-------0-----------0--------0-------0-------0---|

D|--------0------0---------0-------0-----------0--------0-------0-------0---|

A|--------------------------------------------------------------------------------------|

E|---3------3---------3--------3--------2---------2-------2-------2----------|

  

        var                                 e o tem      po      pa       ra

 

E|-------------------------------------------------------------------------------------|

B|-------------------------------------------------------------------------------------|

G|--------0------0---------0-------0-----------0--------0-------0-------0---|

D|--------0------0---------0-------0-----------0--------0-------0-------0---|

A|--------------------------------------------3---------3-------3-------3---------|

E|---0------0---------0--------0--------------------------------------------------|

  

        Ah                                  éasortedelevarahoraprapasse 

 

E|-------------------------------------------------------------------------------------|

B|-------------------------------------------------------------------------------------|

G|--------0------0---------0-------0-----------0--------0-------0-------0---|

D|--------0------0---------0-------0-----------0--------0-------0-------0---|

A|---5------5---------5--------5--------5---------5-------2-------2---------|

E|-------------------------------------------------------------------------------------|

  

       ar            pra cá  e  pra        lá         pra     lá   e pra 

 

E|-------------------------------------------------------------------------------------|

B|-------------------------------------------------------------------------------------|

G|--------0------0---------0-------0-----------0--------0-------0-------0---|

D|--------0------0---------0-------0-----------0--------0-------0-------0---|

A|---5------5---------5--------5--------5---------5-------2-------2---------|

E|-------------------------------------------------------------------------------------|

  

        cá                             quan    do         a       qui      tú

 

E|-------------------------------------------------------------------------------------|

B|-------------------------------------------------------------------------------------|

G|--------0------0---------0-------0-----------0--------0-------0-------0---|

D|--------0------0---------0-------0-----------0--------0-------0-------0---|

A|--------------------------------------------3---------3-------3-------3---------|

E|---3------3---------3--------3--------------------------------------------------|

    

         tá

 

E|-------------------------------------------------------------------------------------|

B|-------------------------------------------------------------------------------------|

G|--------0------0---------0-------0-----------0--------0-------0-------0---|

D|--------0------0---------0-------0-----------0--------0-------0-------0---|

A|--------------------------------------------3---------3-------3-------3---------|

E|---3------3---------3--------3--------------------------------------------------|

 

(repete tudo, depois do refrão, em vez de ir para  tablatura acima vai direto para a tablatura abaixo)

 

E|-------------------------------------------------------------------------------------|

B|-------------------------------------------------------------------------------------|

G|--------0------0---------0-------0-----------0--------0-------0-------0---|

D|--------0------0---------0-------0-----------0--------0-------0-------0---|

A|--------------------------------------------3---------3-------3-------3---------|

E|---0------0---------0--------0--------------------------------------------------|

  

        Tu                                  

 

E|-------------------------------------------------------------------------------------|

B|-------------------------------------------------------------------------------------|

G|--------0------0---------0-------0-----------0--------0-------0-------0---|

D|--------0------0---------0-------0-----------0--------0-------0-------0---|

A|--------------------------------------------------------------------------------------|

E|---3------3---------3--------3--------2---------2-------2-------2----------|

  

        tu

 

E|-------------------------------------------------------------------------------------|

B|-------------------------------------------------------------------------------------|

G|--------0------0---------0-------0-----------0--------0-------0-------0---|

D|--------0------0---------0-------0-----------0--------0-------0-------0---|

A|--------------------------------------------3---------3-------3-------3---------|

E|---0------0---------0--------0--------------------------------------------------|

  

        Tu            

 

E|-------------------------------------------------------------------------------------|

B|-------------------------------------------------------------------------------------|

G|--------0------0---------0-------0-----------0--------0-------0-------0---|

D|--------0------0---------0-------0-----------0--------0-------0-------0---|

A|---5------5---------5--------5--------5---------5-------5-------5---------|

E|-------------------------------------------------------------------------------------|

  

        tu

 

(Refrão: Ah... eu sóquero o leve da vida...)

 

E|-------------------------------------------------------------------------------------|

B|-------------------------------------------------------------------------------------|

G|--------0------0---------0-------0-----------0--------0-------0-------0---|

D|--------0------0---------0-------0-----------0--------0-------0-------0---|

A|--------------------------------------------3---------3-------3-------3---------|

E|---3------3---------3--------3--------------------------------------------------|

    

                                            é tre     vo    dequatrofolhas

 

E|-------------------------------------------------------------------------------------|

B|-------------------------------------------------------------------------------------|

G|--------0------0---------0-------0-----------0--------0-------0-------0---|

D|--------0------0---------0-------0-----------0--------0-------0-------0---|

A|--------------------------------------------3---------3-------3-------3---------|

E|---3------3---------3--------3--------------------------------------------------|

    

                                            é tre     vo    dequatrofolhasé

 

E|-------------------------------------------------------------------------------------|

B|-------------------------------------------------------------------------------------|

G|--------0------0---------0-------0-----------0--------0-------0-------0---|

D|--------0------0---------0-------0-----------0--------0-------0-------0---|

A|--------------------------------------------3---------3-------3-------3---------|

E|---3------3---------3--------3--------------------------------------------------|

    

                                            é tre     vo    dequatrofolhas

 

E|-------------------------------------------------------------------------------------|

B|-------------------------------------------------------------------------------------|

G|--------0------0---------0-------0-----------0--------0-------0-------0---|

D|--------0------0---------0-------0-----------0--------0-------0-------0---|

A|--------------------------------------------3---------3-------3-------3---------|

E|---3------3---------3--------3--------------------------------------------------|

    

                                            é tre     vo    dequatrofolhasé

Com capotraste ou sem?

Tocando em G - Sol Maior - Sem o Capotraste

Código das notas e tablatura - como ler

Mão esquerda 

Mão esquerda - marcando o baixo

Batida - Explicando

OBS: Na maioria das vezes são feitas duas batidas em cada acorde (ou com cada baixo)

Batida - Explicando de outra forma

Redes Sociais

  • Wix Facebook page
  • YouTube Social  Icon