PANTERA COR DE ROSA


Pantera cor-de-rosa Tablatura

Vídeo tablatura para aprender como tocar o solo da Pantera Cor de Rosa no violão. Esta música é um clássico do cinema e agora você vai saber como tocar no violao, é só assitir o vídeo, pegar a tablatura/código no link acima e treinar. Pantera cor de rosa - Cifras.

IMPRIMIR EM PDF

]---------------------------------------------------------------------[

]---------------------------------------------------------------------[

]---------------------------------------------------------------------[

]---------------------------------------------------------------------[

]--4----5----6----7-------------------4----5----6----7-----[

]---------------------------------------------------------------------[

]-----------------------------------------------------------------[

]-----------------------------------------------------------------[

]---------------------------------------------------5---4------[

]----------------------4---5------------4---5---------------[

]-4---5---6---7--------------6---7------------------------[

]-----------------------------------------------------------------[

]--------------------------------------------------------------------[

]--------------------------------------------------------------------[

]------------------4---3------------3---2---0----------------[

]--------------------------------------------------------0---2---[

]----6---7-------------------------------------------------------[

]-------------------------------------------------------------------[

]----------------------------------------------------------------------------------[

]----------------------------------------------------------------------------------[

]------------------------------------------------------5---4-----------5---4--[

]-----------------------4---5------------4---5--------------------------------[

]--4---5---6---7-------------6---7----------------------4---5-----------[

]----------------------------------------------------------------------------------[

]-----------------------------------------------------------------[

]-----------------------------------------------------------------[

]---------------------------------------------------5---4------[

]----------------------4---5------------4---5---------------[

]-4---5---6---7--------------6---7------------------------[

]-----------------------------------------------------------------[

]----------------------------------------------------------------[

]----------------------------------------------------------------[

]----------------4---3-----------3---2---0----------------[

]------------------------------------------------------0---2---[

]----6---7-----------------------------------------------------[

]----------------------------------------------------------------[

]---------------------------------------------------------------[

]-------------------------5----3----0-----------------------[

]-------------------------------------------2----0-----------[

]-------------------------------------------------------2-----[

]-4----5----6----7----------------------------------------[

]---------------------------------------------------------------[

]--------------------------------------------------------------------------[

]--------------------------------------------------------------------------[

]--2/3----2/3----2/3----2/3----2---0-----------------------[

]--------------------------------------------------------0----2----2---[

]--------------------------------------------------------------------------[

]--------------------------------------------------------------------------[

APRENDA A TOCAR VIOLÃO

Você também vai gostar de:

Brasileirinho

Hino do Corinthians

Simpsons

TODAS AS MÚSICAS

Músicas fáceis

Intermediário

Solos

Musicas de filmes

Músicas de Rock

300 Cifras para iniciante

Redes Sociais

  • Wix Facebook page
  • YouTube Social  Icon