INDIANA JONES

Música do filme Indiana Jones - Tablatura e código

Veja como fazer um toque fácil no violão, o tema do filme Indiana jones. Lição para iniciante que está aprendendo a tocar violão.

TABLATURA

1E]-----------------------------------------------------[

2B]---------------------1------------------------------[

3G]----------------0-----------------------------------[

4D]----2----3----------------0-----2-----3-------[

5A]-----------------------------------------------------[

6E]-----------------------------------------------------[

1E]-----------------------1--------------------------------0--------[

2B]------------------0------------------0----1----3--------------[

3G]------0----2-----------------2---------------------------------[

4D]-------------------------------------------------------------------[

5A]-------------------------------------------------------------------[

6E]-------------------------------------------------------------------[

1E]-------------------------------------------------0------1-----------[

2B]-----------------------1---------------3----------------------------[

3G]------------------0--------------------------------------------------[

4D]-----2----3---------------------------------------------------------[

5A]-----------------------------------------------------------------------[

6E]-----------------------------------------------------------------------[

]-----------------0-----------------------0--------------------0-----------------0----------[

]------------------------3------------------------3------------------3-------------------3--[

]--0------0-------------------------0--------------------0-----------------0---------------[

]---------------------------------------------------------------------------------------------[

]---------------------------------------------------------------------------------------------[

]---------------------------------------------------------------------------------------------[

CÓDIGO - (Como entender o código)

42 43 30 21

40 42 43

30 32 20 11

32 20 21 23 10

42 43 30 21

23 10 11

30 30 10 23

30 10 23

30 10 23

30 10 23

Outros toques fáceis para iniciante no violão:

Star Wars

Superman

Pretty Woman

Redes Sociais

  • Wix Facebook page
  • YouTube Social  Icon