007 - JAMES BOND

James Bond - 007 - Tablatura - Violão

Música fácil para iniciante no violão, tema do filme 007, James Bond.

Imprimir em PDF

INTRO

]---------------------------------------­--------------------------------[

]---------------------------------------­--------------------------------[

]---------------------------------------­--------------------------------[

]---------------------------------------­--------------------------------[

]--------2----------3-----------4-----------3----------------------[

]--------------0-----------0----------0------------0---------­------[


(2X)

RIFF

]-----------------------------------­-------------------------------------------------------------[

]-----------------------------------­-------------------------------------------------------------[

]-----------------------------------­-------------------------------------------------------------[

]-----------------------------------­-------------------------------------------------------------[

]-----------------------------------­-------------------------------------------------------------[

]---0-----2---2---2----2-------0---0---0----0---3--3--3---3---­--2---2---2--[

]---------------------------------------­---------------------------------------------------[

]---------------------------------------­---------------------------------------------------[

]---------------------------------------­---------------------------------------------------[

]---------------------------------------­---------------------------------------------------[

]---------------------------------------­---------------------------------------------------[

]---0----2--2--2---2------0--0--0----0------3--3--3--3---­--2--1--0---[

]--------------------------------------------------[

]--------------------------------------------------[

]--------------------------------------------------[

]--------1----0---------------------------------[

]------------------------2-----0-----2---------[

]---------------------------------------------------[

TEMA

]---------------------------------------­----------------------------------------------------[

]-----------------4----3---------------------0-----­-------------------------------------[

]-----------0--------------------0-----3-----------­------0-----------------------------[

]-----2--------------------------------------­---------------------4------------------2--[

]------------------------------------­-------------------------------------2------4--------[

]--------------------------------------------------------------------------------------------[

]---------------------------------------­-------------------------------------------------------[

]--------------4----3------------------------0------­--------------------------------------[

]----------0-------------------0-----3-----------­------0--------------------------------[

]------2--------------------------------­-----------------------4-------------1------2---[

]----------------------------------­------------------------------------2--------------------[

]---------------------------------------------------------------------------------------------[

TEMA 8ª ACIMA

]-------------11----10--------6---7----------­-----------------------------------[

]---------8-----------------8---------------8-1­0p8p7------------------------[

]---9------------------------------------­----------------------------------------9----[

]----------------------------------­---------------------------------9----11----------[

]---------------------------------------­-------------------------------------------------[

]---------------------------------------­-------------------------------------------------[

]---------------11----10---------6---7----------­-----------------------------------[

]---------8--------------------8--------------8-1­0p8p7------------------------[

]---9---------------------------------­---------------------------------------8--11---[

]------------------------------------­----------------------------------9-----------------[

]---------------------------------------­---------------------------------------------------[

]---------------------------------------­---------------------------------------------------[

PARTE C

] ------0---0---0---2---0---2-----3---3------3---2---­0---2-------------[

] ------0---0---0---2---0---2-----3---3------3---2---­0---2-------------[

]-------0---0---0---2---0---2-----3---3------3---2---­0---2-------------[

] ---------------------------------------­-----------------------------------------------[

] --------------------------------------------------------------------------------------[

] ---------------------------------------­-----------------------------------------------[

]-------7----7----------7-----7------------------7----­-7----7------------------[

]-------7----7----------7-----7------------------7----­-7----7------------------[

]-------7----7----------7-----7------------------7----­-7----7------------------[

]---------------------------------------­-------------------------------------------------[

]----------------------------------------------------------------------------------------[

]-------------------7---------------------7----­----------------------------------------[

FINAL

]---------------------------------------------------­-----------------------------------11---10---[

]------------4---3----------------7---6------------­---12---11-----------8-----------------[

]-------0---------------------4--------------------7---------------------9----------------------[

]--2----------------------5----­---------------9--------------------------------------------------[

]-------------------------­----------------------------------------------------------------------------[

]--------------------------­---------------------------------------------------------------------------[

TODAS AS MÚSICAS

MÚSICAS DE FILMES

RIFFS E TOQUES FÁCEIS


Você também irá gostar de:

INDIANA JONES

ROCKY

STAR WARS

MISSÃO IMPOSSÍVEL

PIRATAS DO CARIBE

TITANIC

BATMAN

ASA BRANCA- Melodia

_

Redes Sociais

  • Wix Facebook page
  • YouTube Social  Icon