007 - JAMES BOND

 

 

 

 

James Bond - 007 - Tablatura - Violão

 

Música fácil para iniciante no violão, tema do filme 007, James Bond.

Imprimir em PDF

 

INTRO

 

1E]---------------------------------------­--------------------------------[

2B]---------------------------------------­--------------------------------[

3G]---------------------------------------­--------------------------------[

4D]---------------------------------------­--------------------------------[

5A]--------2----------3-----------4-----------3----------------------[

6E]--------------0-----------0----------0------------0---------­------[          (2X)

 

 

RIFF

 

 

1E]-----------------------------------­-------------------------------------------------------------[

2B]-----------------------------------­-------------------------------------------------------------[

3G]-----------------------------------­-------------------------------------------------------------[

4D]-----------------------------------­-------------------------------------------------------------[

5A]-----------------------------------­-------------------------------------------------------------[      

6E]---0-----2---2---2----2-------0---0---0----0---3--3--3---3---­--2---2---2--[

 

 

1E]---------------------------------------­---------------------------------------------------[

2B]---------------------------------------­---------------------------------------------------[

3G]---------------------------------------­---------------------------------------------------[

4D]---------------------------------------­---------------------------------------------------[

5A]---------------------------------------­---------------------------------------------------[

6E]---0----2--2--2---2------0--0--0----0------3--3--3--3---­--2--1--0---[

 

 

1E]--------------------------------------------------[

2B]--------------------------------------------------[

3G]--------------------------------------------------[

4D]--------1----0---------------------------------[

5A]------------------------2-----0-----2---------[

6E]---------------------------------------------------[

 

 

 

TEMA

 

1E]---------------------------------------­----------------------------------------------------[

2B]-----------------4----3---------------------0-----­-------------------------------------[

3G]-----------0--------------------0-----3-----------­------0-----------------------------[

4D]-----2--------------------------------------­---------------------4------------------2--[

5A]------------------------------------­-------------------------------------2------4--------[

6E]--------------------------------------------------------------------------------------------[

 

 

 

1E]---------------------------------------­-------------------------------------------------------[

2B]--------------4----3------------------------0------­--------------------------------------[

3G]----------0-------------------0-----3-----------­------0--------------------------------[

4D]------2--------------------------------­-----------------------4-------------1------2---[

5A]----------------------------------­------------------------------------2--------------------[

6E]---------------------------------------------------------------------------------------------[

 

 

TEMA 8ª ACIMA

 

1E]-------------11----10--------6---7----------­-----------------------------------[

2B]---------8-----------------8---------------8-1­0p8p7------------------------[

3G]---9------------------------------------­----------------------------------------9----[

4D]----------------------------------­---------------------------------9----11----------[

5A]---------------------------------------­-------------------------------------------------[

6E]---------------------------------------­-------------------------------------------------[

 

 

1E]---------------11----10---------6---7----------­-----------------------------------[

2B]---------8--------------------8--------------8-1­0p8p7------------------------[

3G]---9---------------------------------­---------------------------------------8--11---[

4D]------------------------------------­----------------------------------9-----------------[

5A]---------------------------------------­---------------------------------------------------[

6E]---------------------------------------­---------------------------------------------------[

 

 

 

PARTE C

 

 

1E] ------0---0---0---2---0---2-----3---3------3---2---­0---2-------------[

2B] ------0---0---0---2---0---2-----3---3------3---2---­0---2-------------[

3G]-------0---0---0---2---0---2-----3---3------3---2---­0---2-------------[

4D] ---------------------------------------­-----------------------------------------------[        

5A] --------------------------------------------------------------------------------------[

6E] ---------------------------------------­-----------------------------------------------[

 

 

1E]-------7----7----------7-----7------------------7----­-7----7------------------[

2B]-------7----7----------7-----7------------------7----­-7----7------------------[

3G]-------7----7----------7-----7------------------7----­-7----7------------------[

4D]---------------------------------------­-------------------------------------------------[

5A]----------------------------------------------------------------------------------------[

6E]-------------------7---------------------7----­----------------------------------------[

 

 

FINAL

 

1E]---------------------------------------------------­-----------------------------------11---10---[

2B]------------4---3----------------7---6------------­---12---11-----------8-----------------[

3G]-------0---------------------4--------------------7---------------------9----------------------[

4D]--2----------------------5----­---------------9--------------------------------------------------[

5A]-------------------------­----------------------------------------------------------------------------[

6E]--------------------------­---------------------------------------------------------------------------[

 

 

 

 

TODAS AS MÚSICAS

 

MÚSICAS DE FILMES

 

RIFFS E TOQUES FÁCEIS

 

Você também irá gostar de:

 

INDIANA JONES

 

ROCKY

 

STAR WARS

 

MISSÃO IMPOSSÍVEL

 

PIRATAS DO CARIBE

 

TITANIC

 

BATMAN

 

ASA BRANCA- Melodia

                          

 

 

 

 

_

Please reload

Redes Sociais

  • Wix Facebook page
  • YouTube Social  Icon