top of page
Buscar

Toques fáceis dos Beatles

Riffs fáceis para iniciantes no violão

Você que está aprendendo a tocar violão e gosta dos Beatles, irá gostar também de tocar esses pequenos riffs fáceis (pequenos solinhos ou toques) da banda. Estes toques fáceis vão deixar seus dedos mais hábeis e você irá se divertir tocando no seu violão trechos de clássicos da música.




And I love her

"And I Love Her" é uma linda canção dos Beatles para o álbum A Hard Day's Night, lançado em 1964 como trilha sonora do filme A Hard Day's Night.. Composta por Paul McCartney para sua namorada Jane Asher, foi um grande sucesso dos Beatles.

Usando apenas as duas cordas mais graves do violão, a quinta e a sexta corda, você reproduzirá uma parte do que o George Harrison faz na guitarra da banda. Esse riff é um nível zero, pois ele é bem fácil, dá pra fazer até com um dedo apenas. Dá até para cantar as frases do verso da música enquanto soa a última nota.



1E|---------------------------------------|

2B|---------------------------------------|

3G|---------------------------------------|

4D|---------------------------------------|

5A|------------7---6---4--------------|

6E|-----7--------------------------------|



67 57 56 54



Day tripper

"Day Tripper" é uma música dos Beatles que foi lançada em dezembro de 1965, parceria de Lennon e McCartney, é uma canção de rock baseada em um famoso riff de guitarra. Este riff, você pode aprender a tocar no violão, mesmo sendo um iniciante. Ele não é tão fácil quanto o de "And I love her" (acima), você já deve ter alguma habilidade com toques mais fáceis no violão para tentar fazer esse riff, pois ele é rápido, possui muitas notas e usa três cordas do violão.




|------------------------------------------------------------|

|------------------------------------------------------------|

|------------------------------------------------------------|

|-----------------------2--0---------4---------0--2---|

|-------------------2-------------2--------2-------------|

|---0----3---4-------------------------------------------|



60 63 64 52 42 40
52 44
52 40 42


Come together

"Come Together" foi lançada no álbum Abbey Road de 1969.

John Lennon fez esta música para Timothy Leary, baseado no slogan da campanha deste para o governo da Califórnia em 1969 (Come Together, Join the Party). .

Neste riff de guitarra, temos que colocar os dedos lá na casa 10 e 12 do violão, bem próximo ao corpo do instrumento. Além disso, há um elemento novo aí que é o slide (/) essa barra entre o 5 e o 10 (5/10), que significa que você deve tocar a casa cinco e arrastar o dedo pelo braço até a casa 10. Não se deve tocar na casa 10 em nenhum momento, o som da 10 vem do mesmo golpe dado na casa 5, o arraste é uma articulação que gera um efeito sonoro muito legal.


1E|-----------------------------------------------------|

2B|-----------------------------------------------------|

3G|-----------------------------------------------------|

4D|-----------------------------------------------------|

5A|---12----12-------------------8----------------|

6E|---10----10-----5/10-------------10------|




512 512
610 610

65/610 58 610


Something

"Something" foi lançada em outubro de 1969, foi escrita pelo vocalista e guitarrista George Harrison. É considerada uma música de amor para Pattie Boyd (primeira esposa de Harrison). Gravada pelos Beatles, a faixa apresenta um solo de guitarra que vários críticos musicais identificam entre as melhores interpretações de Harrison.

"Something" é a segunda canção dos Beatles mais regravada da história, (atrás de "Yesterday") com covers de artistas como Frank Sinatra, Elvis Presley, Ray Charles e James Brown.

Abaixo temos o trecho do solo de guitarra que marca a música. É possível o aluno iniciante fazer ele no violão. Usa apenas uma corda. Possui uma novidade que é o bend, a letra "b" que aparece no primeiro número 12 (12b), que significa que você deve esticar a corda pra cima pra dar o efeito do bend.



1E|-------------------------------------------------------|

2B|----10----12b---10----11---12---13----|

3G|------------------------------------------------------|

4D|-----------------------------------------------------|

5A|-----------------------------------------------------|

6E|-----------------------------------------------------|




210 212b 210 211 212 213




Hey Bulldog

Hey Bulldog é uma canção dos Beatles que aparece no álbum Yellow Submarine. Escrita majoritariamente por John Lennon (creditada à Lennon/McCartney), recebendo algumas contribuições de Paul McCartney no estúdio, a música foi gravada durante a filmagem do vídeo promocional de Lady Madonna e é uma das poucas músicas dos Beatles que se baseia num riff de piano. Para Lennon, "uma grande gravação, mas não significa nada".


Este riff de piano foi transposto para o violão e você poderá tocar aqui. Não é um riff tão fácil para nível zero no violão, pois é rápido e possui muitas notas. Mas para quem já está com habilidade nos Toques fáceis, é tranquilo




|---------------------------------------------------------------|

|---------------------------------------------------------------|

|---------------------------------------------------------------|

|--------------------0------------2-------------3------4--|

|----2----2------------2-------------2--------------------|

|--------------------------------------------------------------|



|-------------------------------------------------------------|

|--------------------------------------------------------------|

|--------------------------------------------------------------|

|------------------0------------4-------------3------2---|

|----2---2------------2-------------2--------------------|

|-------------------------------------------------------------|




52 52 40
52 42 52 43 44

52 52 40
52 44 52 43 42

Comments


bottom of page